ISO-10303-21;
HEADER;
FILE_DESCRIPTION (( 'STEP AP203' ),
    '1' );
FILE_NAME ('633104.STEP',
    '2014-07-23T14:21:06',
    ( 'Kyle' ),
    ( 'Microsoft' ),
    'SwSTEP 2.0',
    'SolidWorks 2014',
    '' );
FILE_SCHEMA (( 'CONFIG_CONTROL_DESIGN' ));
ENDSEC;

DATA;
#1 = CC_DESIGN_APPROVAL ( #4, ( #7 ) ) ;
#2 = CARTESIAN_POINT ( 'NONE',  ( 0.0000000000000000000, 0.06250000000000000000, 0.0000000000000000000 ) ) ;
#3 = VERTEX_POINT ( 'NONE', #186 ) ;
#4 = APPROVAL ( #78, 'UNSPECIFIED' ) ;
#5 = VERTEX_POINT ( 'NONE', #76 ) ;
#6 = DIRECTION ( 'NONE',  ( 0.0000000000000000000, 0.0000000000000000000, 1.000000000000000000 ) ) ;
#7 = PRODUCT_DEFINITION_FORMATION_WITH_SPECIFIED_SOURCE ( 'ANY', '', #251, .NOT_KNOWN. ) ;
#8 = ORIENTED_EDGE ( 'NONE', *, *, #85, .F. ) ;
#9 = DIRECTION ( 'NONE',  ( 0.0000000000000000000, 1.000000000000000000, 0.0000000000000000000 ) ) ;
#10 = DIRECTION ( 'NONE',  ( -0.0000000000000000000, -1.000000000000000000, -0.0000000000000000000 ) ) ;
#11 = PLANE ( 'NONE',  #154 ) ;
#12 = APPROVAL_DATE_TIME ( #15, #34 ) ;
#13 = VERTEX_POINT ( 'NONE', #222 ) ;
#14 = DIRECTION ( 'NONE',  ( -0.0000000000000000000, -1.000000000000000000, -0.0000000000000000000 ) ) ;
#15 = DATE_AND_TIME ( #53, #54 ) ;
#16 = ORIENTED_EDGE ( 'NONE', *, *, #179, .T. ) ;
#17 = CC_DESIGN_DATE_AND_TIME_ASSIGNMENT ( #28, #79, ( #44 ) ) ;
#18 = EDGE_LOOP ( 'NONE', ( #151, #191, #220, #8 ) ) ;
#19 = CC_DESIGN_PERSON_AND_ORGANIZATION_ASSIGNMENT ( #38, #81, ( #44 ) ) ;
#20 = ORIENTED_EDGE ( 'NONE', *, *, #162, .T. ) ;
#21 = SECURITY_CLASSIFICATION ( '', '', #69 ) ;
#22 = DIRECTION ( 'NONE',  ( 0.0000000000000000000, 1.000000000000000000, 0.0000000000000000000 ) ) ;
#23 = ADVANCED_FACE ( 'NONE', ( #216 ), #196, .F. ) ;
#24 = DIRECTION ( 'NONE',  ( 0.0000000000000000000, -0.0000000000000000000, 1.000000000000000000 ) ) ;
#25 = PERSON_AND_ORGANIZATION ( #32, #59 ) ;
#26 = CARTESIAN_POINT ( 'NONE',  ( 0.0000000000000000000, 0.0000000000000000000, 0.0000000000000000000 ) ) ;
#27 = CC_DESIGN_APPROVAL ( #128, ( #21 ) ) ;
#28 = DATE_AND_TIME ( #33, #36 ) ;
#29 = LINE ( 'NONE', #56, #188 ) ;
#30 = CC_DESIGN_APPROVAL ( #34, ( #44 ) ) ;
#31 = EDGE_LOOP ( 'NONE', ( #232, #142 ) ) ;
#32 = PERSON ( 'UNSPECIFIED', 'UNSPECIFIED', 'UNSPECIFIED', ('UNSPECIFIED'), ('UNSPECIFIED'), ('UNSPECIFIED') ) ;
#33 = CALENDAR_DATE ( 2014, 23, 7 ) ;
#34 = APPROVAL ( #86, 'UNSPECIFIED' ) ;
#35 = EDGE_CURVE ( 'NONE', #198, #130, #29, .T. ) ;
#36 = LOCAL_TIME ( 9, 21, 6.000000000000000000, #37 ) ;
#37 = COORDINATED_UNIVERSAL_TIME_OFFSET ( 6, 0, .BEHIND. ) ;
#38 = PERSON_AND_ORGANIZATION ( #32, #59 ) ;
#39 = DIRECTION ( 'NONE',  ( -0.0000000000000000000, -1.000000000000000000, -0.0000000000000000000 ) ) ;
#40 = ADVANCED_FACE ( 'NONE', ( #224 ), #175, .T. ) ;
#41 = ADVANCED_BREP_SHAPE_REPRESENTATION ( '633104', ( #106, #55 ), #84 ) ;
#42 = APPROVAL_DATE_TIME ( #43, #4 ) ;
#43 = DATE_AND_TIME ( #48, #49 ) ;
#44 = PRODUCT_DEFINITION ( 'UNKNOWN', '', #7, #238 ) ;
#45 = DIRECTION ( 'NONE',  ( 0.0000000000000000000, 0.0000000000000000000, -1.000000000000000000 ) ) ;
#46 = DIRECTION ( 'NONE',  ( -0.0000000000000000000, -1.000000000000000000, -0.0000000000000000000 ) ) ;
#47 = ADVANCED_FACE ( 'NONE', ( #202, #169 ), #11, .F. ) ;
#48 = CALENDAR_DATE ( 2014, 23, 7 ) ;
#49 = LOCAL_TIME ( 9, 21, 6.000000000000000000, #50 ) ;
#50 = COORDINATED_UNIVERSAL_TIME_OFFSET ( 6, 0, .BEHIND. ) ;
#51 = CC_DESIGN_PERSON_AND_ORGANIZATION_ASSIGNMENT ( #60, #90, ( #251 ) ) ;
#52 = APPROVAL_PERSON_ORGANIZATION ( #25, #4, #75 ) ;
#53 = CALENDAR_DATE ( 2014, 23, 7 ) ;
#54 = LOCAL_TIME ( 9, 21, 6.000000000000000000, #64 ) ;
#55 = AXIS2_PLACEMENT_3D ( 'NONE', #111, #127, #94 ) ;
#56 = CARTESIAN_POINT ( 'NONE',  ( 0.0000000000000000000, 0.06250000000000000000, -0.1874999999999999700 ) ) ;
#57 = SHAPE_DEFINITION_REPRESENTATION ( #168, #41 ) ;
#58 = DIRECTION ( 'NONE',  ( 0.0000000000000000000, 0.0000000000000000000, -1.000000000000000000 ) ) ;
#59 = ORGANIZATION ( 'UNSPECIFIED', 'UNSPECIFIED', '' ) ;
#60 = PERSON_AND_ORGANIZATION ( #32, #59 ) ;
#61 = PERSON_AND_ORGANIZATION ( #32, #59 ) ;
#62 = APPROVAL_PERSON_ORGANIZATION ( #61, #34, #83 ) ;
#63 = APPROVAL_ROLE ( '' ) ;
#64 = COORDINATED_UNIVERSAL_TIME_OFFSET ( 6, 0, .BEHIND. ) ;
#65 = APPROVAL_STATUS ( 'not_yet_approved' ) ;
#66 = DATE_TIME_ROLE ( 'classification_date' ) ;
#67 = EDGE_CURVE ( 'NONE', #5, #139, #190, .T. ) ;
#68 = PERSON_AND_ORGANIZATION_ROLE ( 'classification_officer' ) ;
#69 = SECURITY_CLASSIFICATION_LEVEL ( 'unclassified' ) ;
#70 = AXIS2_PLACEMENT_3D ( 'NONE', #132, #117, #112 ) ;
#71 = PERSON_AND_ORGANIZATION_ROLE ( 'design_supplier' ) ;
#72 = EDGE_CURVE ( 'NONE', #252, #198, #214, .T. ) ;
#73 = PERSON_AND_ORGANIZATION_ROLE ( 'creator' ) ;
#74 = CARTESIAN_POINT ( 'NONE',  ( 0.0000000000000000000, 0.06250000000000000000, 0.0000000000000000000 ) ) ;
#75 = APPROVAL_ROLE ( '' ) ;
#76 = CARTESIAN_POINT ( 'NONE',  ( 0.0000000000000000000, 0.06250000000000000000, -0.1250000000000000000 ) ) ;
#77 = ORIENTED_EDGE ( 'NONE', *, *, #203, .F. ) ;
#78 = APPROVAL_STATUS ( 'not_yet_approved' ) ;
#79 = DATE_TIME_ROLE ( 'creation_date' ) ;
#80 = ADVANCED_FACE ( 'NONE', ( #178 ), #131, .F. ) ;
#81 = PERSON_AND_ORGANIZATION_ROLE ( 'creator' ) ;
#82 = ORIENTED_EDGE ( 'NONE', *, *, #179, .F. ) ;
#83 = APPROVAL_ROLE ( '' ) ;
#84 =( GEOMETRIC_REPRESENTATION_CONTEXT ( 3 ) GLOBAL_UNCERTAINTY_ASSIGNED_CONTEXT ( ( #208 ) ) GLOBAL_UNIT_ASSIGNED_CONTEXT ( ( #102, #101, #100 ) ) REPRESENTATION_CONTEXT ( 'NONE', 'WORKASPACE' ) );
#85 = EDGE_CURVE ( 'NONE', #5, #13, #133, .T. ) ;
#86 = APPROVAL_STATUS ( 'not_yet_approved' ) ;
#87 = LENGTH_MEASURE_WITH_UNIT ( LENGTH_MEASURE( 0.02539999999999999900 ), #103 );
#88 = APPLICATION_PROTOCOL_DEFINITION ( 'international standard', 'config_control_design', 1994, #89 ) ;
#89 = APPLICATION_CONTEXT ( 'configuration controlled 3d designs of mechanical parts and assemblies' ) ;
#90 = PERSON_AND_ORGANIZATION_ROLE ( 'design_owner' ) ;
#91 = FACE_BOUND ( 'NONE', #31, .T. ) ;
#92 = EDGE_CURVE ( 'NONE', #198, #252, #150, .T. ) ;
#93 = MECHANICAL_CONTEXT ( 'NONE', #96, 'mechanical' ) ;
#94 = DIRECTION ( 'NONE',  ( 1.000000000000000000, 0.0000000000000000000, 0.0000000000000000000 ) ) ;
#95 = AXIS2_PLACEMENT_3D ( 'NONE', #126, #123, #122 ) ;
#96 = APPLICATION_CONTEXT ( 'configuration controlled 3d designs of mechanical parts and assemblies' ) ;
#97 = APPLICATION_PROTOCOL_DEFINITION ( 'international standard', 'config_control_design', 1994, #96 ) ;
#98 = VECTOR ( 'NONE', #171, 39.37007874015748100 ) ;
#99 = FACE_OUTER_BOUND ( 'NONE', #223, .T. ) ;
#100 =( NAMED_UNIT ( * ) SI_UNIT ( $, .STERADIAN. ) SOLID_ANGLE_UNIT ( ) );
#101 =( NAMED_UNIT ( * ) PLANE_ANGLE_UNIT ( ) SI_UNIT ( $, .RADIAN. ) );
#102 =( CONVERSION_BASED_UNIT ( 'INCH', #87 ) LENGTH_UNIT ( ) NAMED_UNIT ( #109 ) );
#103 =( LENGTH_UNIT ( ) NAMED_UNIT ( * ) SI_UNIT ( $, .METRE. ) );
#104 = VERTEX_POINT ( 'NONE', #205 ) ;
#105 = AXIS2_PLACEMENT_3D ( 'NONE', #149, #145, #141 ) ;
#106 = MANIFOLD_SOLID_BREP ( 'Boss-Extrude1', #219 ) ;
#107 = CYLINDRICAL_SURFACE ( 'NONE', #121, 0.1874999999999999700 ) ;
#108 = LINE ( 'NONE', #135, #98 ) ;
#109 = DIMENSIONAL_EXPONENTS ( 1.000000000000000000, 0.0000000000000000000, 0.0000000000000000000, 0.0000000000000000000, 0.0000000000000000000, 0.0000000000000000000, 0.0000000000000000000 ) ;
#110 = LINE ( 'NONE', #160, #116 ) ;
#111 = CARTESIAN_POINT ( 'NONE',  ( 0.0000000000000000000, 0.0000000000000000000, 0.0000000000000000000 ) ) ;
#112 = DIRECTION ( 'NONE',  ( 0.0000000000000000000, -0.0000000000000000000, 1.000000000000000000 ) ) ;
#113 = AXIS2_PLACEMENT_3D ( 'NONE', #159, #157, #153 ) ;
#114 = CIRCLE ( 'NONE', #95, 0.1250000000000000000 ) ;
#115 = PRODUCT_RELATED_PRODUCT_CATEGORY ( 'detail', '', ( #251 ) ) ;
#116 = VECTOR ( 'NONE', #152, 39.37007874015748100 ) ;
#117 = DIRECTION ( 'NONE',  ( 0.0000000000000000000, 1.000000000000000000, 0.0000000000000000000 ) ) ;
#118 = PLANE ( 'NONE',  #70 ) ;
#119 = CIRCLE ( 'NONE', #136, 0.1250000000000000000 ) ;
#120 = CARTESIAN_POINT ( 'NONE',  ( 2.296212748401286800E-017, 0.06250000000000000000, 0.1874999999999999700 ) ) ;
#121 = AXIS2_PLACEMENT_3D ( 'NONE', #185, #209, #199 ) ;
#122 = DIRECTION ( 'NONE',  ( 0.0000000000000000000, 0.0000000000000000000, 1.000000000000000000 ) ) ;
#123 = DIRECTION ( 'NONE',  ( 0.0000000000000000000, 1.000000000000000000, 0.0000000000000000000 ) ) ;
#124 = CIRCLE ( 'NONE', #105, 0.1874999999999999700 ) ;
#125 = CIRCLE ( 'NONE', #194, 0.1874999999999999700 ) ;
#126 = CARTESIAN_POINT ( 'NONE',  ( 0.0000000000000000000, 0.0000000000000000000, 0.0000000000000000000 ) ) ;
#127 = DIRECTION ( 'NONE',  ( 0.0000000000000000000, 0.0000000000000000000, 1.000000000000000000 ) ) ;
#128 = APPROVAL ( #65, 'UNSPECIFIED' ) ;
#129 = FACE_OUTER_BOUND ( 'NONE', #184, .T. ) ;
#130 = VERTEX_POINT ( 'NONE', #217 ) ;
#131 = CYLINDRICAL_SURFACE ( 'NONE', #247, 0.1250000000000000000 ) ;
#132 = CARTESIAN_POINT ( 'NONE',  ( 0.0000000000000000000, 0.06250000000000000000, 0.0000000000000000000 ) ) ;
#133 = LINE ( 'NONE', #227, #161 ) ;
#134 = ORIENTED_EDGE ( 'NONE', *, *, #85, .T. ) ;
#135 = CARTESIAN_POINT ( 'NONE',  ( 2.296212748401286800E-017, 0.06250000000000000000, 0.1874999999999999700 ) ) ;
#136 = AXIS2_PLACEMENT_3D ( 'NONE', #177, #176, #172 ) ;
#137 = CARTESIAN_POINT ( 'NONE',  ( 0.0000000000000000000, 0.06250000000000000000, -0.1874999999999999700 ) ) ;
#138 = ORIENTED_EDGE ( 'NONE', *, *, #200, .F. ) ;
#139 = VERTEX_POINT ( 'NONE', #195 ) ;
#140 = CC_DESIGN_PERSON_AND_ORGANIZATION_ASSIGNMENT ( #248, #71, ( #7 ) ) ;
#141 = DIRECTION ( 'NONE',  ( 0.0000000000000000000, 0.0000000000000000000, 1.000000000000000000 ) ) ;
#142 = ORIENTED_EDGE ( 'NONE', *, *, #162, .F. ) ;
#143 = CC_DESIGN_PERSON_AND_ORGANIZATION_ASSIGNMENT ( #242, #68, ( #21 ) ) ;
#144 = ORIENTED_EDGE ( 'NONE', *, *, #35, .F. ) ;
#145 = DIRECTION ( 'NONE',  ( 0.0000000000000000000, 1.000000000000000000, 0.0000000000000000000 ) ) ;
#146 = EDGE_LOOP ( 'NONE', ( #155, #82 ) ) ;
#147 = CC_DESIGN_SECURITY_CLASSIFICATION ( #21, ( #7 ) ) ;
#148 = AXIS2_PLACEMENT_3D ( 'NONE', #228, #46, #58 ) ;
#149 = CARTESIAN_POINT ( 'NONE',  ( 0.0000000000000000000, 0.0000000000000000000, 0.0000000000000000000 ) ) ;
#150 = CIRCLE ( 'NONE', #240, 0.1874999999999999700 ) ;
#151 = ORIENTED_EDGE ( 'NONE', *, *, #67, .T. ) ;
#152 = DIRECTION ( 'NONE',  ( -0.0000000000000000000, -1.000000000000000000, -0.0000000000000000000 ) ) ;
#153 = DIRECTION ( 'NONE',  ( 0.0000000000000000000, 0.0000000000000000000, 1.000000000000000000 ) ) ;
#154 = AXIS2_PLACEMENT_3D ( 'NONE', #26, #22, #24 ) ;
#155 = ORIENTED_EDGE ( 'NONE', *, *, #163, .F. ) ;
#156 = ADVANCED_FACE ( 'NONE', ( #129 ), #107, .T. ) ;
#157 = DIRECTION ( 'NONE',  ( 0.0000000000000000000, 1.000000000000000000, 0.0000000000000000000 ) ) ;
#158 = CIRCLE ( 'NONE', #113, 0.1250000000000000000 ) ;
#159 = CARTESIAN_POINT ( 'NONE',  ( 0.0000000000000000000, 0.0000000000000000000, 0.0000000000000000000 ) ) ;
#160 = CARTESIAN_POINT ( 'NONE',  ( 1.530808498934191500E-017, 0.06250000000000000000, 0.1250000000000000000 ) ) ;
#161 = VECTOR ( 'NONE', #10, 39.37007874015748100 ) ;
#162 = EDGE_CURVE ( 'NONE', #139, #5, #119, .T. ) ;
#163 = EDGE_CURVE ( 'NONE', #130, #104, #125, .T. ) ;
#164 = DIRECTION ( 'NONE',  ( 0.0000000000000000000, 0.0000000000000000000, 1.000000000000000000 ) ) ;
#165 = CC_DESIGN_PERSON_AND_ORGANIZATION_ASSIGNMENT ( #250, #73, ( #7 ) ) ;
#166 = DIRECTION ( 'NONE',  ( 0.0000000000000000000, 1.000000000000000000, 0.0000000000000000000 ) ) ;
#167 = CARTESIAN_POINT ( 'NONE',  ( 0.0000000000000000000, 0.0000000000000000000, 0.0000000000000000000 ) ) ;
#168 = PRODUCT_DEFINITION_SHAPE ( 'NONE', 'NONE',  #44 ) ;
#169 = FACE_BOUND ( 'NONE', #241, .T. ) ;
#170 = ORIENTED_EDGE ( 'NONE', *, *, #35, .T. ) ;
#171 = DIRECTION ( 'NONE',  ( -0.0000000000000000000, -1.000000000000000000, -0.0000000000000000000 ) ) ;
#172 = DIRECTION ( 'NONE',  ( 0.0000000000000000000, 0.0000000000000000000, 1.000000000000000000 ) ) ;
#173 = EDGE_CURVE ( 'NONE', #13, #3, #158, .T. ) ;
#174 = ORIENTED_EDGE ( 'NONE', *, *, #183, .F. ) ;
#175 = CYLINDRICAL_SURFACE ( 'NONE', #148, 0.1874999999999999700 ) ;
#176 = DIRECTION ( 'NONE',  ( 0.0000000000000000000, 1.000000000000000000, 0.0000000000000000000 ) ) ;
#177 = CARTESIAN_POINT ( 'NONE',  ( 0.0000000000000000000, 0.06250000000000000000, 0.0000000000000000000 ) ) ;
#178 = FACE_OUTER_BOUND ( 'NONE', #226, .T. ) ;
#179 = EDGE_CURVE ( 'NONE', #104, #130, #124, .T. ) ;
#180 = ORIENTED_EDGE ( 'NONE', *, *, #163, .T. ) ;
#181 = ORIENTED_EDGE ( 'NONE', *, *, #200, .T. ) ;
#182 = DIRECTION ( 'NONE',  ( -0.0000000000000000000, -1.000000000000000000, -0.0000000000000000000 ) ) ;
#183 = EDGE_CURVE ( 'NONE', #139, #3, #110, .T. ) ;
#184 = EDGE_LOOP ( 'NONE', ( #207, #237, #16, #144 ) ) ;
#185 = CARTESIAN_POINT ( 'NONE',  ( 0.0000000000000000000, 0.06250000000000000000, 0.0000000000000000000 ) ) ;
#186 = CARTESIAN_POINT ( 'NONE',  ( 1.530808498934191500E-017, 0.0000000000000000000, 0.1250000000000000000 ) ) ;
#187 = AXIS2_PLACEMENT_3D ( 'NONE', #235, #234, #230 ) ;
#188 = VECTOR ( 'NONE', #39, 39.37007874015748100 ) ;
#189 = DIRECTION ( 'NONE',  ( 0.0000000000000000000, 0.0000000000000000000, 1.000000000000000000 ) ) ;
#190 = CIRCLE ( 'NONE', #197, 0.1250000000000000000 ) ;
#191 = ORIENTED_EDGE ( 'NONE', *, *, #183, .T. ) ;
#192 = DIRECTION ( 'NONE',  ( 0.0000000000000000000, 1.000000000000000000, 0.0000000000000000000 ) ) ;
#193 = CARTESIAN_POINT ( 'NONE',  ( 0.0000000000000000000, 0.06250000000000000000, 0.0000000000000000000 ) ) ;
#194 = AXIS2_PLACEMENT_3D ( 'NONE', #167, #166, #164 ) ;
#195 = CARTESIAN_POINT ( 'NONE',  ( 1.530808498934191500E-017, 0.06250000000000000000, 0.1250000000000000000 ) ) ;
#196 = CYLINDRICAL_SURFACE ( 'NONE', #212, 0.1250000000000000000 ) ;
#197 = AXIS2_PLACEMENT_3D ( 'NONE', #2, #9, #6 ) ;
#198 = VERTEX_POINT ( 'NONE', #137 ) ;
#199 = DIRECTION ( 'NONE',  ( 0.0000000000000000000, 0.0000000000000000000, -1.000000000000000000 ) ) ;
#200 = EDGE_CURVE ( 'NONE', #3, #13, #114, .T. ) ;
#201 = APPROVAL_DATE_TIME ( #204, #128 ) ;
#202 = FACE_OUTER_BOUND ( 'NONE', #146, .T. ) ;
#203 = EDGE_CURVE ( 'NONE', #252, #104, #108, .T. ) ;
#204 = DATE_AND_TIME ( #206, #210 ) ;
#205 = CARTESIAN_POINT ( 'NONE',  ( 2.296212748401286800E-017, 0.0000000000000000000, 0.1874999999999999700 ) ) ;
#206 = CALENDAR_DATE ( 2014, 23, 7 ) ;
#207 = ORIENTED_EDGE ( 'NONE', *, *, #72, .F. ) ;
#208 = UNCERTAINTY_MEASURE_WITH_UNIT (LENGTH_MEASURE( 1.000000000000000100E-005 ), #102, 'distance_accuracy_value', 'NONE');
#209 = DIRECTION ( 'NONE',  ( -0.0000000000000000000, -1.000000000000000000, -0.0000000000000000000 ) ) ;
#210 = LOCAL_TIME ( 9, 21, 6.000000000000000000, #213 ) ;
#211 = ORIENTED_EDGE ( 'NONE', *, *, #72, .T. ) ;
#212 = AXIS2_PLACEMENT_3D ( 'NONE', #74, #182, #45 ) ;
#213 = COORDINATED_UNIVERSAL_TIME_OFFSET ( 6, 0, .BEHIND. ) ;
#214 = CIRCLE ( 'NONE', #187, 0.1874999999999999700 ) ;
#215 = APPROVAL_PERSON_ORGANIZATION ( #218, #128, #63 ) ;
#216 = FACE_OUTER_BOUND ( 'NONE', #18, .T. ) ;
#217 = CARTESIAN_POINT ( 'NONE',  ( 0.0000000000000000000, 0.0000000000000000000, -0.1874999999999999700 ) ) ;
#218 = PERSON_AND_ORGANIZATION ( #32, #59 ) ;
#219 = CLOSED_SHELL ( 'NONE', ( #23, #156, #244, #47, #40, #80 ) ) ;
#220 = ORIENTED_EDGE ( 'NONE', *, *, #173, .F. ) ;
#221 = DATE_AND_TIME ( #225, #231 ) ;
#222 = CARTESIAN_POINT ( 'NONE',  ( 0.0000000000000000000, 0.0000000000000000000, -0.1250000000000000000 ) ) ;
#223 = EDGE_LOOP ( 'NONE', ( #233, #211 ) ) ;
#224 = FACE_OUTER_BOUND ( 'NONE', #229, .T. ) ;
#225 = CALENDAR_DATE ( 2014, 23, 7 ) ;
#226 = EDGE_LOOP ( 'NONE', ( #174, #20, #134, #138 ) ) ;
#227 = CARTESIAN_POINT ( 'NONE',  ( 0.0000000000000000000, 0.06250000000000000000, -0.1250000000000000000 ) ) ;
#228 = CARTESIAN_POINT ( 'NONE',  ( 0.0000000000000000000, 0.06250000000000000000, 0.0000000000000000000 ) ) ;
#229 = EDGE_LOOP ( 'NONE', ( #77, #236, #170, #180 ) ) ;
#230 = DIRECTION ( 'NONE',  ( 0.0000000000000000000, 0.0000000000000000000, 1.000000000000000000 ) ) ;
#231 = LOCAL_TIME ( 9, 21, 6.000000000000000000, #239 ) ;
#232 = ORIENTED_EDGE ( 'NONE', *, *, #67, .F. ) ;
#233 = ORIENTED_EDGE ( 'NONE', *, *, #92, .T. ) ;
#234 = DIRECTION ( 'NONE',  ( 0.0000000000000000000, 1.000000000000000000, 0.0000000000000000000 ) ) ;
#235 = CARTESIAN_POINT ( 'NONE',  ( 0.0000000000000000000, 0.06250000000000000000, 0.0000000000000000000 ) ) ;
#236 = ORIENTED_EDGE ( 'NONE', *, *, #92, .F. ) ;
#237 = ORIENTED_EDGE ( 'NONE', *, *, #203, .T. ) ;
#238 = DESIGN_CONTEXT ( 'detailed design', #89, 'design' ) ;
#239 = COORDINATED_UNIVERSAL_TIME_OFFSET ( 6, 0, .BEHIND. ) ;
#240 = AXIS2_PLACEMENT_3D ( 'NONE', #193, #192, #189 ) ;
#241 = EDGE_LOOP ( 'NONE', ( #245, #181 ) ) ;
#242 = PERSON_AND_ORGANIZATION ( #32, #59 ) ;
#243 = CC_DESIGN_DATE_AND_TIME_ASSIGNMENT ( #221, #66, ( #21 ) ) ;
#244 = ADVANCED_FACE ( 'NONE', ( #99, #91 ), #118, .T. ) ;
#245 = ORIENTED_EDGE ( 'NONE', *, *, #173, .T. ) ;
#246 = DIRECTION ( 'NONE',  ( 0.0000000000000000000, 0.0000000000000000000, -1.000000000000000000 ) ) ;
#247 = AXIS2_PLACEMENT_3D ( 'NONE', #249, #14, #246 ) ;
#248 = PERSON_AND_ORGANIZATION ( #32, #59 ) ;
#249 = CARTESIAN_POINT ( 'NONE',  ( 0.0000000000000000000, 0.06250000000000000000, 0.0000000000000000000 ) ) ;
#250 = PERSON_AND_ORGANIZATION ( #32, #59 ) ;
#251 = PRODUCT ( '633104', '633104', '', ( #93 ) ) ;
#252 = VERTEX_POINT ( 'NONE', #120 ) ;
ENDSEC;
END-ISO-10303-21;
